ISO-10303-21;
HEADER;
FILE_DESCRIPTION (( 'STEP AP203' ),
    '1' );
FILE_NAME ('BK7-BSC-10-900-1200.STEP',
    '2020-12-22T03:16:51',
    ( '' ),
    ( '' ),
    'SwSTEP 2.0',
    'SolidWorks 2020',
    '' );
FILE_SCHEMA (( 'CONFIG_CONTROL_DESIGN' ));
ENDSEC;

DATA;
#1 = APPROVAL_STATUS ( 'not_yet_approved' ) ;
#2 = AXIS2_PLACEMENT_3D ( 'NONE', #177, #283, #314 ) ;
#3 = COORDINATED_UNIVERSAL_TIME_OFFSET ( 8, 0, .AHEAD. ) ;
#4 = VERTEX_POINT ( 'NONE', #39 ) ;
#5 = PERSON_AND_ORGANIZATION_ROLE ( 'design_owner' ) ;
#6 = LINE ( 'NONE', #107, #150 ) ;
#7 = COORDINATED_UNIVERSAL_TIME_OFFSET ( 8, 0, .AHEAD. ) ;
#8 = ORIENTED_EDGE ( 'NONE', *, *, #80, .T. ) ;
#9 = DIRECTION ( 'NONE',  ( 2.220446049250313081E-16, 1.000000000000000000, 0.000000000000000000 ) ) ;
#10 = DIRECTION ( 'NONE',  ( 1.734723475976807094E-16, 1.000000000000000000, -0.000000000000000000 ) ) ;
#11 = EDGE_CURVE ( 'NONE', #159, #302, #110, .T. ) ;
#12 = LINE ( 'NONE', #281, #180 ) ;
#13 = ADVANCED_FACE ( 'NONE', ( #253 ), #200, .T. ) ;
#14 =( GEOMETRIC_REPRESENTATION_CONTEXT ( 3 ) GLOBAL_UNCERTAINTY_ASSIGNED_CONTEXT ( ( #231 ) ) GLOBAL_UNIT_ASSIGNED_CONTEXT ( ( #289, #265, #49 ) ) REPRESENTATION_CONTEXT ( 'NONE', 'WORKASPACE' ) );
#15 = CARTESIAN_POINT ( 'NONE',  ( 5.000000000000000888, -5.000000000000000000, -5.000000000000000000 ) ) ;
#16 = CARTESIAN_POINT ( 'NONE',  ( 5.000000000000000888, 5.000000000000001776, -5.000000000000000000 ) ) ;
#17 = CARTESIAN_POINT ( 'NONE',  ( 0.000000000000000000, 0.000000000000000000, 0.000000000000000000 ) ) ;
#18 = AXIS2_PLACEMENT_3D ( 'NONE', #259, #67, #286 ) ;
#19 = FACE_OUTER_BOUND ( 'NONE', #146, .T. ) ;
#20 = CARTESIAN_POINT ( 'NONE',  ( -4.999999999999999112, -5.000000000000000000, -5.000000000000000000 ) ) ;
#21 = EDGE_LOOP ( 'NONE', ( #194, #27, #106, #118 ) ) ;
#22 = CC_DESIGN_DATE_AND_TIME_ASSIGNMENT ( #75, #251, ( #160 ) ) ;
#23 = APPROVAL_ROLE ( '' ) ;
#24 = ORIENTED_EDGE ( 'NONE', *, *, #38, .T. ) ;
#25 = EDGE_CURVE ( 'NONE', #4, #159, #272, .T. ) ;
#26 = PERSON_AND_ORGANIZATION_ROLE ( 'creator' ) ;
#27 = ORIENTED_EDGE ( 'NONE', *, *, #270, .F. ) ;
#28 = VECTOR ( 'NONE', #63, 1000.000000000000000 ) ;
#29 = CALENDAR_DATE ( 2020, 22, 12 ) ;
#30 = PERSON ( 'UNSPECIFIED', 'UNSPECIFIED', 'UNSPECIFIED', ('UNSPECIFIED'), ('UNSPECIFIED'), ('UNSPECIFIED') ) ;
#31 = CC_DESIGN_SECURITY_CLASSIFICATION ( #160, ( #58 ) ) ;
#32 = LINE ( 'NONE', #35, #130 ) ;
#33 = CC_DESIGN_PERSON_AND_ORGANIZATION_ASSIGNMENT ( #268, #172, ( #58 ) ) ;
#34 = ORIENTED_EDGE ( 'NONE', *, *, #292, .T. ) ;
#35 = CARTESIAN_POINT ( 'NONE',  ( -5.000000000000000888, -4.999999999999998224, -5.000000000000000000 ) ) ;
#36 = ORIENTED_EDGE ( 'NONE', *, *, #91, .F. ) ;
#37 = VECTOR ( 'NONE', #176, 1000.000000000000000 ) ;
#38 = EDGE_CURVE ( 'NONE', #196, #252, #32, .T. ) ;
#39 = CARTESIAN_POINT ( 'NONE',  ( 5.000000000000002665, 5.000000000000000000, 5.000000000000000000 ) ) ;
#40 = PLANE ( 'NONE',  #210 ) ;
#41 = VECTOR ( 'NONE', #9, 1000.000000000000000 ) ;
#42 = DIRECTION ( 'NONE',  ( 0.000000000000000000, 1.000000000000000000, 0.000000000000000000 ) ) ;
#43 = DIRECTION ( 'NONE',  ( -0.000000000000000000, 0.000000000000000000, 1.000000000000000000 ) ) ;
#44 = EDGE_CURVE ( 'NONE', #211, #159, #126, .T. ) ;
#45 = CARTESIAN_POINT ( 'NONE',  ( 5.000000000000000888, -5.000000000000000000, 5.000000000000000000 ) ) ;
#46 = DIRECTION ( 'NONE',  ( -0.7071067811865475727, -0.7071067811865474617, 0.000000000000000000 ) ) ;
#47 = VECTOR ( 'NONE', #288, 1000.000000000000000 ) ;
#48 = CARTESIAN_POINT ( 'NONE',  ( -5.000000000000000888, -4.999999999999998224, 5.000000000000000000 ) ) ;
#49 =( NAMED_UNIT ( * ) SI_UNIT ( $, .STERADIAN. ) SOLID_ANGLE_UNIT ( ) );
#50 = ORIENTED_EDGE ( 'NONE', *, *, #88, .T. ) ;
#51 = AXIS2_PLACEMENT_3D ( 'NONE', #233, #175, #279 ) ;
#52 = CALENDAR_DATE ( 2020, 22, 12 ) ;
#53 = ORIENTED_EDGE ( 'NONE', *, *, #237, .F. ) ;
#54 = EDGE_CURVE ( 'NONE', #73, #302, #6, .T. ) ;
#55 = ORIENTED_EDGE ( 'NONE', *, *, #11, .T. ) ;
#56 = APPROVAL ( #169, 'UNSPECIFIED' ) ;
#57 = ORIENTED_EDGE ( 'NONE', *, *, #274, .F. ) ;
#58 = PRODUCT_DEFINITION_FORMATION_WITH_SPECIFIED_SOURCE ( 'ANY', '', #100, .NOT_KNOWN. ) ;
#59 = CARTESIAN_POINT ( 'NONE',  ( 5.000000000000002665, 5.000000000000000000, 5.000000000000000000 ) ) ;
#60 = SECURITY_CLASSIFICATION_LEVEL ( 'unclassified' ) ;
#61 = DIRECTION ( 'NONE',  ( -0.000000000000000000, -0.000000000000000000, -1.000000000000000000 ) ) ;
#62 = PERSON_AND_ORGANIZATION_ROLE ( 'classification_officer' ) ;
#63 = DIRECTION ( 'NONE',  ( 1.000000000000000000, -4.857225732735059864E-17, 0.000000000000000000 ) ) ;
#64 = AXIS2_PLACEMENT_3D ( 'NONE', #266, #97, #162 ) ;
#65 = ORIENTED_EDGE ( 'NONE', *, *, #274, .T. ) ;
#66 = DIRECTION ( 'NONE',  ( 0.7071067811865475727, 0.7071067811865474617, 0.000000000000000000 ) ) ;
#67 = DIRECTION ( 'NONE',  ( 0.000000000000000000, -0.000000000000000000, 1.000000000000000000 ) ) ;
#68 = APPROVAL ( #271, 'UNSPECIFIED' ) ;
#69 = LINE ( 'NONE', #134, #47 ) ;
#70 = LINE ( 'NONE', #188, #276 ) ;
#71 = VERTEX_POINT ( 'NONE', #151 ) ;
#72 = EDGE_CURVE ( 'NONE', #189, #115, #219, .T. ) ;
#73 = VERTEX_POINT ( 'NONE', #305 ) ;
#74 = PERSON_AND_ORGANIZATION ( #30, #234 ) ;
#75 = DATE_AND_TIME ( #192, #186 ) ;
#76 = ORIENTED_EDGE ( 'NONE', *, *, #91, .T. ) ;
#77 = ORIENTED_EDGE ( 'NONE', *, *, #292, .F. ) ;
#78 = VECTOR ( 'NONE', #284, 1000.000000000000000 ) ;
#79 = DIRECTION ( 'NONE',  ( -0.7071067811865475727, -0.7071067811865474617, 0.000000000000000000 ) ) ;
#80 = EDGE_CURVE ( 'NONE', #4, #73, #170, .T. ) ;
#81 = DATE_AND_TIME ( #52, #153 ) ;
#82 = LINE ( 'NONE', #173, #28 ) ;
#83 = SHAPE_DEFINITION_REPRESENTATION ( #228, #109 ) ;
#84 = LINE ( 'NONE', #147, #41 ) ;
#85 = DIRECTION ( 'NONE',  ( 2.220446049250313081E-16, 1.000000000000000000, 0.000000000000000000 ) ) ;
#86 = PLANE ( 'NONE',  #51 ) ;
#87 = CARTESIAN_POINT ( 'NONE',  ( 0.000000000000000000, 0.000000000000000000, -5.000000000000000000 ) ) ;
#88 = EDGE_CURVE ( 'NONE', #115, #71, #84, .T. ) ;
#89 = CARTESIAN_POINT ( 'NONE',  ( 5.000000000000002665, 5.000000000000000000, -5.000000000000000000 ) ) ;
#90 = LINE ( 'NONE', #179, #78 ) ;
#91 = EDGE_CURVE ( 'NONE', #71, #189, #82, .T. ) ;
#92 = VECTOR ( 'NONE', #137, 1000.000000000000000 ) ;
#93 = FACE_OUTER_BOUND ( 'NONE', #299, .T. ) ;
#94 = ADVANCED_FACE ( 'NONE', ( #238 ), #131, .T. ) ;
#95 = DIRECTION ( 'NONE',  ( -0.000000000000000000, -0.000000000000000000, -1.000000000000000000 ) ) ;
#96 = CARTESIAN_POINT ( 'NONE',  ( 5.000000000000000888, 5.000000000000001776, 5.000000000000000000 ) ) ;
#97 = DIRECTION ( 'NONE',  ( -4.857225732735059864E-17, -1.000000000000000000, 0.000000000000000000 ) ) ;
#98 = VERTEX_POINT ( 'NONE', #16 ) ;
#99 = CC_DESIGN_APPROVAL ( #56, ( #160 ) ) ;
#100 = PRODUCT ( 'BK7-BSC-10-900-1200', 'BK7-BSC-10-900-1200', '', ( #191 ) ) ;
#101 = ADVANCED_FACE ( 'NONE', ( #19 ), #40, .F. ) ;
#102 = APPROVAL_ROLE ( '' ) ;
#103 = VECTOR ( 'NONE', #155, 1000.000000000000000 ) ;
#104 = DATE_AND_TIME ( #295, #261 ) ;
#105 = PERSON_AND_ORGANIZATION ( #30, #234 ) ;
#106 = ORIENTED_EDGE ( 'NONE', *, *, #72, .T. ) ;
#107 = CARTESIAN_POINT ( 'NONE',  ( -4.999999999999999112, -5.000000000000000000, 5.000000000000000000 ) ) ;
#108 = PERSON_AND_ORGANIZATION_ROLE ( 'creator' ) ;
#109 = ADVANCED_BREP_SHAPE_REPRESENTATION ( 'BK7-BSC-10-900-1200', ( #313, #315, #297 ), #14 ) ;
#110 = LINE ( 'NONE', #275, #277 ) ;
#111 = DIRECTION ( 'NONE',  ( -0.000000000000000000, 0.000000000000000000, -1.000000000000000000 ) ) ;
#112 = CC_DESIGN_PERSON_AND_ORGANIZATION_ASSIGNMENT ( #296, #62, ( #160 ) ) ;
#113 = CARTESIAN_POINT ( 'NONE',  ( -4.999999999999999112, -5.000000000000000000, -5.000000000000000000 ) ) ;
#114 = DIRECTION ( 'NONE',  ( 0.7071067811865474617, -0.7071067811865475727, 0.000000000000000000 ) ) ;
#115 = VERTEX_POINT ( 'NONE', #48 ) ;
#116 = LINE ( 'NONE', #209, #132 ) ;
#117 = PLANE ( 'NONE',  #239 ) ;
#118 = ORIENTED_EDGE ( 'NONE', *, *, #256, .T. ) ;
#119 = ADVANCED_FACE ( 'NONE', ( #280 ), #262, .F. ) ;
#120 = COORDINATED_UNIVERSAL_TIME_OFFSET ( 8, 0, .AHEAD. ) ;
#121 = ORIENTED_EDGE ( 'NONE', *, *, #321, .T. ) ;
#122 = EDGE_LOOP ( 'NONE', ( #8, #208, #294 ) ) ;
#123 = EDGE_LOOP ( 'NONE', ( #55, #216, #320, #193 ) ) ;
#124 = DIRECTION ( 'NONE',  ( -0.7071067811865475727, -0.7071067811865474617, 0.000000000000000000 ) ) ;
#125 = VECTOR ( 'NONE', #201, 1000.000000000000000 ) ;
#126 = LINE ( 'NONE', #217, #136 ) ;
#127 = EDGE_LOOP ( 'NONE', ( #243, #152, #171 ) ) ;
#128 = CC_DESIGN_PERSON_AND_ORGANIZATION_ASSIGNMENT ( #213, #5, ( #100 ) ) ;
#129 = CARTESIAN_POINT ( 'NONE',  ( 0.000000000000000000, 0.000000000000000000, 5.000000000000000000 ) ) ;
#130 = VECTOR ( 'NONE', #85, 1000.000000000000000 ) ;
#131 = PLANE ( 'NONE',  #2 ) ;
#132 = VECTOR ( 'NONE', #46, 1000.000000000000000 ) ;
#133 = VECTOR ( 'NONE', #61, 1000.000000000000000 ) ;
#134 = CARTESIAN_POINT ( 'NONE',  ( 5.000000000000000888, 5.000000000000001776, -5.000000000000000000 ) ) ;
#135 = FACE_OUTER_BOUND ( 'NONE', #21, .T. ) ;
#136 = VECTOR ( 'NONE', #10, 1000.000000000000000 ) ;
#137 = DIRECTION ( 'NONE',  ( -0.000000000000000000, 0.000000000000000000, -1.000000000000000000 ) ) ;
#138 = APPLICATION_PROTOCOL_DEFINITION ( 'international standard', 'config_control_design', 1994, #282 ) ;
#139 = COORDINATED_UNIVERSAL_TIME_OFFSET ( 8, 0, .AHEAD. ) ;
#140 = APPROVAL_DATE_TIME ( #81, #56 ) ;
#141 = CALENDAR_DATE ( 2020, 22, 12 ) ;
#142 = AXIS2_PLACEMENT_3D ( 'NONE', #129, #167, #144 ) ;
#143 = ORIENTED_EDGE ( 'NONE', *, *, #256, .F. ) ;
#144 = DIRECTION ( 'NONE',  ( 1.000000000000000000, 0.000000000000000000, 0.000000000000000000 ) ) ;
#145 = ORIENTED_EDGE ( 'NONE', *, *, #270, .T. ) ;
#146 = EDGE_LOOP ( 'NONE', ( #224, #77, #290, #304 ) ) ;
#147 = CARTESIAN_POINT ( 'NONE',  ( -5.000000000000000888, -4.999999999999998224, 5.000000000000000000 ) ) ;
#148 = COORDINATED_UNIVERSAL_TIME_OFFSET ( 8, 0, .AHEAD. ) ;
#149 = EDGE_CURVE ( 'NONE', #302, #211, #311, .T. ) ;
#150 = VECTOR ( 'NONE', #309, 1000.000000000000000 ) ;
#151 = CARTESIAN_POINT ( 'NONE',  ( -4.999999999999999112, 5.000000000000001776, 5.000000000000000000 ) ) ;
#152 = ORIENTED_EDGE ( 'NONE', *, *, #44, .F. ) ;
#153 = LOCAL_TIME ( 11, 16, 51.00000000000000000, #7 ) ;
#154 = FACE_OUTER_BOUND ( 'NONE', #184, .T. ) ;
#155 = DIRECTION ( 'NONE',  ( 1.000000000000000000, 0.000000000000000000, 0.000000000000000000 ) ) ;
#156 = FACE_OUTER_BOUND ( 'NONE', #127, .T. ) ;
#157 = CLOSED_SHELL ( 'NONE', ( #308, #221, #306, #94, #163 ) ) ;
#158 = DIRECTION ( 'NONE',  ( -0.7071067811865474617, 0.7071067811865475727, 0.000000000000000000 ) ) ;
#159 = VERTEX_POINT ( 'NONE', #89 ) ;
#160 = SECURITY_CLASSIFICATION ( '', '', #60 ) ;
#161 = CARTESIAN_POINT ( 'NONE',  ( -4.999999999999999112, -5.000000000000000000, 5.000000000000000000 ) ) ;
#162 = DIRECTION ( 'NONE',  ( -1.000000000000000000, 4.857225732735059864E-17, 0.000000000000000000 ) ) ;
#163 = ADVANCED_FACE ( 'NONE', ( #93 ), #181, .F. ) ;
#164 = APPROVAL_DATE_TIME ( #104, #269 ) ;
#165 = EDGE_LOOP ( 'NONE', ( #255, #166, #53, #34 ) ) ;
#166 = ORIENTED_EDGE ( 'NONE', *, *, #25, .F. ) ;
#167 = DIRECTION ( 'NONE',  ( -0.000000000000000000, 0.000000000000000000, 1.000000000000000000 ) ) ;
#168 = VECTOR ( 'NONE', #124, 1000.000000000000000 ) ;
#169 = APPROVAL_STATUS ( 'not_yet_approved' ) ;
#170 = LINE ( 'NONE', #59, #168 ) ;
#171 = ORIENTED_EDGE ( 'NONE', *, *, #149, .F. ) ;
#172 = PERSON_AND_ORGANIZATION_ROLE ( 'design_supplier' ) ;
#173 = CARTESIAN_POINT ( 'NONE',  ( 5.000000000000000888, 5.000000000000001776, 5.000000000000000000 ) ) ;
#174 = ORIENTED_EDGE ( 'NONE', *, *, #38, .F. ) ;
#175 = DIRECTION ( 'NONE',  ( -1.000000000000000000, 1.734723475976807094E-16, 0.000000000000000000 ) ) ;
#176 = DIRECTION ( 'NONE',  ( 1.000000000000000000, 0.000000000000000000, 0.000000000000000000 ) ) ;
#177 = CARTESIAN_POINT ( 'NONE',  ( 0.000000000000000000, 0.000000000000000000, 5.000000000000000000 ) ) ;
#178 = EDGE_CURVE ( 'NONE', #252, #98, #69, .T. ) ;
#179 = CARTESIAN_POINT ( 'NONE',  ( 5.000000000000002665, 5.000000000000000000, 5.000000000000000000 ) ) ;
#180 = VECTOR ( 'NONE', #111, 1000.000000000000000 ) ;
#181 = PLANE ( 'NONE',  #18 ) ;
#182 = LINE ( 'NONE', #161, #103 ) ;
#183 = DIRECTION ( 'NONE',  ( 0.000000000000000000, 0.000000000000000000, 1.000000000000000000 ) ) ;
#184 = EDGE_LOOP ( 'NONE', ( #174, #143, #50, #65 ) ) ;
#185 = AXIS2_PLACEMENT_3D ( 'NONE', #230, #114, #66 ) ;
#186 = LOCAL_TIME ( 11, 16, 51.00000000000000000, #148 ) ;
#187 = LOCAL_TIME ( 11, 16, 51.00000000000000000, #139 ) ;
#188 = CARTESIAN_POINT ( 'NONE',  ( 5.000000000000000888, -5.000000000000000000, 5.000000000000000000 ) ) ;
#189 = VERTEX_POINT ( 'NONE', #96 ) ;
#190 = VECTOR ( 'NONE', #287, 1000.000000000000000 ) ;
#191 = MECHANICAL_CONTEXT ( 'NONE', #282, 'mechanical' ) ;
#192 = CALENDAR_DATE ( 2020, 22, 12 ) ;
#193 = ORIENTED_EDGE ( 'NONE', *, *, #25, .T. ) ;
#194 = ORIENTED_EDGE ( 'NONE', *, *, #321, .F. ) ;
#195 = PERSON_AND_ORGANIZATION ( #30, #234 ) ;
#196 = VERTEX_POINT ( 'NONE', #235 ) ;
#197 = ORIENTED_EDGE ( 'NONE', *, *, #178, .F. ) ;
#198 = ORIENTED_EDGE ( 'NONE', *, *, #88, .F. ) ;
#199 = EDGE_LOOP ( 'NONE', ( #197, #57, #76, #145 ) ) ;
#200 = PLANE ( 'NONE',  #142 ) ;
#201 = DIRECTION ( 'NONE',  ( -0.7071067811865475727, -0.7071067811865474617, 0.000000000000000000 ) ) ;
#202 = CC_DESIGN_APPROVAL ( #68, ( #232 ) ) ;
#203 = DIRECTION ( 'NONE',  ( 0.000000000000000000, -0.000000000000000000, 1.000000000000000000 ) ) ;
#204 = CC_DESIGN_PERSON_AND_ORGANIZATION_ASSIGNMENT ( #195, #26, ( #232 ) ) ;
#205 = PLANE ( 'NONE',  #229 ) ;
#206 = DIRECTION ( 'NONE',  ( 0.000000000000000000, 0.000000000000000000, 1.000000000000000000 ) ) ;
#207 = CARTESIAN_POINT ( 'NONE',  ( -4.999999999999999112, -5.000000000000000000, 5.000000000000000000 ) ) ;
#208 = ORIENTED_EDGE ( 'NONE', *, *, #319, .T. ) ;
#209 = CARTESIAN_POINT ( 'NONE',  ( 5.000000000000000888, 5.000000000000001776, -5.000000000000000000 ) ) ;
#210 = AXIS2_PLACEMENT_3D ( 'NONE', #207, #42, #203 ) ;
#211 = VERTEX_POINT ( 'NONE', #15 ) ;
#212 = PERSON_AND_ORGANIZATION ( #30, #234 ) ;
#213 = PERSON_AND_ORGANIZATION ( #30, #234 ) ;
#214 = PERSON_AND_ORGANIZATION ( #30, #234 ) ;
#215 = DIRECTION ( 'NONE',  ( 1.000000000000000000, 0.000000000000000000, 0.000000000000000000 ) ) ;
#216 = ORIENTED_EDGE ( 'NONE', *, *, #54, .F. ) ;
#217 = CARTESIAN_POINT ( 'NONE',  ( 5.000000000000002665, 5.000000000000000000, -5.000000000000000000 ) ) ;
#218 = EDGE_LOOP ( 'NONE', ( #257, #36, #198 ) ) ;
#219 = LINE ( 'NONE', #303, #125 ) ;
#220 = APPLICATION_CONTEXT ( 'configuration controlled 3d designs of mechanical parts and assemblies' ) ;
#221 = ADVANCED_FACE ( 'NONE', ( #154 ), #205, .F. ) ;
#222 = VERTEX_POINT ( 'NONE', #45 ) ;
#223 = APPROVAL_PERSON_ORGANIZATION ( #214, #56, #301 ) ;
#224 = ORIENTED_EDGE ( 'NONE', *, *, #149, .T. ) ;
#225 = CARTESIAN_POINT ( 'NONE',  ( -4.999999999999999112, 5.000000000000001776, -5.000000000000000000 ) ) ;
#226 = CARTESIAN_POINT ( 'NONE',  ( 5.000000000000002665, 5.000000000000000000, 5.000000000000000000 ) ) ;
#227 = LINE ( 'NONE', #245, #92 ) ;
#228 = PRODUCT_DEFINITION_SHAPE ( 'NONE', 'NONE',  #232 ) ;
#229 = AXIS2_PLACEMENT_3D ( 'NONE', #242, #310, #183 ) ;
#230 = CARTESIAN_POINT ( 'NONE',  ( 5.000000000000002665, 5.000000000000000000, 5.000000000000000000 ) ) ;
#231 = UNCERTAINTY_MEASURE_WITH_UNIT (LENGTH_MEASURE( 1.000000000000000082E-05 ), #289, 'distance_accuracy_value', 'NONE');
#232 = PRODUCT_DEFINITION ( 'UNKNOWN', '', #58, #244 ) ;
#233 = CARTESIAN_POINT ( 'NONE',  ( 5.000000000000002665, 5.000000000000000000, 5.000000000000000000 ) ) ;
#234 = ORGANIZATION ( 'UNSPECIFIED', 'UNSPECIFIED', '' ) ;
#235 = CARTESIAN_POINT ( 'NONE',  ( -5.000000000000000888, -4.999999999999998224, -5.000000000000000000 ) ) ;
#236 = DIRECTION ( 'NONE',  ( 1.000000000000000000, 0.000000000000000000, 0.000000000000000000 ) ) ;
#237 = EDGE_CURVE ( 'NONE', #222, #4, #90, .T. ) ;
#238 = FACE_OUTER_BOUND ( 'NONE', #218, .T. ) ;
#239 = AXIS2_PLACEMENT_3D ( 'NONE', #317, #158, #291 ) ;
#240 = CC_DESIGN_PERSON_AND_ORGANIZATION_ASSIGNMENT ( #74, #108, ( #58 ) ) ;
#241 = CARTESIAN_POINT ( 'NONE',  ( -4.999999999999999112, 5.000000000000001776, 5.000000000000000000 ) ) ;
#242 = CARTESIAN_POINT ( 'NONE',  ( -5.000000000000000888, -4.999999999999998224, 5.000000000000000000 ) ) ;
#243 = ORIENTED_EDGE ( 'NONE', *, *, #11, .F. ) ;
#244 = DESIGN_CONTEXT ( 'detailed design', #220, 'design' ) ;
#245 = CARTESIAN_POINT ( 'NONE',  ( 5.000000000000000888, 5.000000000000001776, 5.000000000000000000 ) ) ;
#246 = DATE_TIME_ROLE ( 'creation_date' ) ;
#247 = DATE_AND_TIME ( #141, #187 ) ;
#248 = CC_DESIGN_DATE_AND_TIME_ASSIGNMENT ( #300, #246, ( #232 ) ) ;
#249 = ADVANCED_FACE ( 'NONE', ( #156 ), #264, .F. ) ;
#250 = APPROVAL_DATE_TIME ( #247, #68 ) ;
#251 = DATE_TIME_ROLE ( 'classification_date' ) ;
#252 = VERTEX_POINT ( 'NONE', #225 ) ;
#253 = FACE_OUTER_BOUND ( 'NONE', #122, .T. ) ;
#254 = ORIENTED_EDGE ( 'NONE', *, *, #178, .T. ) ;
#255 = ORIENTED_EDGE ( 'NONE', *, *, #44, .T. ) ;
#256 = EDGE_CURVE ( 'NONE', #115, #196, #12, .T. ) ;
#257 = ORIENTED_EDGE ( 'NONE', *, *, #72, .F. ) ;
#258 = FACE_OUTER_BOUND ( 'NONE', #165, .T. ) ;
#259 = CARTESIAN_POINT ( 'NONE',  ( 0.000000000000000000, 0.000000000000000000, -5.000000000000000000 ) ) ;
#260 = ADVANCED_FACE ( 'NONE', ( #258 ), #86, .F. ) ;
#261 = LOCAL_TIME ( 11, 16, 51.00000000000000000, #3 ) ;
#262 = PLANE ( 'NONE',  #185 ) ;
#263 = LINE ( 'NONE', #241, #190 ) ;
#264 = PLANE ( 'NONE',  #267 ) ;
#265 =( NAMED_UNIT ( * ) PLANE_ANGLE_UNIT ( ) SI_UNIT ( $, .RADIAN. ) );
#266 = CARTESIAN_POINT ( 'NONE',  ( 5.000000000000000888, 5.000000000000001776, 5.000000000000000000 ) ) ;
#267 = AXIS2_PLACEMENT_3D ( 'NONE', #87, #43, #236 ) ;
#268 = PERSON_AND_ORGANIZATION ( #30, #234 ) ;
#269 = APPROVAL ( #1, 'UNSPECIFIED' ) ;
#270 = EDGE_CURVE ( 'NONE', #189, #98, #227, .T. ) ;
#271 = APPROVAL_STATUS ( 'not_yet_approved' ) ;
#272 = LINE ( 'NONE', #226, #133 ) ;
#273 = CLOSED_SHELL ( 'NONE', ( #119, #101, #260, #13, #249 ) ) ;
#274 = EDGE_CURVE ( 'NONE', #71, #252, #263, .T. ) ;
#275 = CARTESIAN_POINT ( 'NONE',  ( 5.000000000000002665, 5.000000000000000000, -5.000000000000000000 ) ) ;
#276 = VECTOR ( 'NONE', #95, 1000.000000000000000 ) ;
#277 = VECTOR ( 'NONE', #79, 1000.000000000000000 ) ;
#278 = CC_DESIGN_APPROVAL ( #269, ( #58 ) ) ;
#279 = DIRECTION ( 'NONE',  ( -1.734723475976807094E-16, -1.000000000000000000, 0.000000000000000000 ) ) ;
#280 = FACE_OUTER_BOUND ( 'NONE', #123, .T. ) ;
#281 = CARTESIAN_POINT ( 'NONE',  ( -5.000000000000000888, -4.999999999999998224, 5.000000000000000000 ) ) ;
#282 = APPLICATION_CONTEXT ( 'configuration controlled 3d designs of mechanical parts and assemblies' ) ;
#283 = DIRECTION ( 'NONE',  ( 0.000000000000000000, -0.000000000000000000, 1.000000000000000000 ) ) ;
#284 = DIRECTION ( 'NONE',  ( 1.734723475976807094E-16, 1.000000000000000000, -0.000000000000000000 ) ) ;
#285 = APPROVAL_PERSON_ORGANIZATION ( #105, #68, #23 ) ;
#286 = DIRECTION ( 'NONE',  ( 2.220446049250313081E-16, 1.000000000000000000, 0.000000000000000000 ) ) ;
#287 = DIRECTION ( 'NONE',  ( -0.000000000000000000, 0.000000000000000000, -1.000000000000000000 ) ) ;
#288 = DIRECTION ( 'NONE',  ( 1.000000000000000000, -4.857225732735059864E-17, 0.000000000000000000 ) ) ;
#289 =( LENGTH_UNIT ( ) NAMED_UNIT ( * ) SI_UNIT ( .MILLI., .METRE. ) );
#290 = ORIENTED_EDGE ( 'NONE', *, *, #319, .F. ) ;
#291 = DIRECTION ( 'NONE',  ( 0.7071067811865475727, 0.7071067811865474617, 0.000000000000000000 ) ) ;
#292 = EDGE_CURVE ( 'NONE', #222, #211, #70, .T. ) ;
#293 = PLANE ( 'NONE',  #64 ) ;
#294 = ORIENTED_EDGE ( 'NONE', *, *, #237, .T. ) ;
#295 = CALENDAR_DATE ( 2020, 22, 12 ) ;
#296 = PERSON_AND_ORGANIZATION ( #30, #234 ) ;
#297 = AXIS2_PLACEMENT_3D ( 'NONE', #17, #206, #215 ) ;
#298 = APPLICATION_PROTOCOL_DEFINITION ( 'international standard', 'config_control_design', 1994, #220 ) ;
#299 = EDGE_LOOP ( 'NONE', ( #121, #24, #254 ) ) ;
#300 = DATE_AND_TIME ( #29, #312 ) ;
#301 = APPROVAL_ROLE ( '' ) ;
#302 = VERTEX_POINT ( 'NONE', #20 ) ;
#303 = CARTESIAN_POINT ( 'NONE',  ( 5.000000000000000888, 5.000000000000001776, 5.000000000000000000 ) ) ;
#304 = ORIENTED_EDGE ( 'NONE', *, *, #54, .T. ) ;
#305 = CARTESIAN_POINT ( 'NONE',  ( -4.999999999999999112, -5.000000000000000000, 5.000000000000000000 ) ) ;
#306 = ADVANCED_FACE ( 'NONE', ( #316 ), #293, .F. ) ;
#307 = APPROVAL_PERSON_ORGANIZATION ( #212, #269, #102 ) ;
#308 = ADVANCED_FACE ( 'NONE', ( #135 ), #117, .F. ) ;
#309 = DIRECTION ( 'NONE',  ( -0.000000000000000000, -0.000000000000000000, -1.000000000000000000 ) ) ;
#310 = DIRECTION ( 'NONE',  ( 1.000000000000000000, -2.220446049250313081E-16, 0.000000000000000000 ) ) ;
#311 = LINE ( 'NONE', #113, #37 ) ;
#312 = LOCAL_TIME ( 11, 16, 51.00000000000000000, #120 ) ;
#313 = MANIFOLD_SOLID_BREP ( 'Í¹Ì¨-À', #273 ) ;
#314 = DIRECTION ( 'NONE',  ( 2.220446049250313081E-16, 1.000000000000000000, 0.000000000000000000 ) ) ;
#315 = MANIFOLD_SOLID_BREP ( '¾µÏ', #157 ) ;
#316 = FACE_OUTER_BOUND ( 'NONE', #199, .T. ) ;
#317 = CARTESIAN_POINT ( 'NONE',  ( 5.000000000000000888, 5.000000000000001776, 5.000000000000000000 ) ) ;
#318 = PRODUCT_RELATED_PRODUCT_CATEGORY ( 'detail', '', ( #100 ) ) ;
#319 = EDGE_CURVE ( 'NONE', #73, #222, #182, .T. ) ;
#320 = ORIENTED_EDGE ( 'NONE', *, *, #80, .F. ) ;
#321 = EDGE_CURVE ( 'NONE', #98, #196, #116, .T. ) ;
ENDSEC;
END-ISO-10303-21;
